CRUSH 'EM - FORO DE MEGADETH EN ESPAÑOL - CRUSH 'EM
Para participar de los temas de discusion y descargar todos los contenidos debes estar registrado..
Navegación
Bienvenido Invitado
Tu ultima visita al foro fue
el

Home
Índice

Cambiar avatar

Encuestas
Compra-Venta
Noticias
Miembros



Mega Chat
 
Zona descargas








Registrarse
Te molesta la publicidad?
Registrate
O
Conectate
Asi podras descargar
todos los contenidos
y participar en los
foros de discusion!
Foro Recomendado

Sondeo

Peor album de Megadeth?

4% 4% [ 1 ]
4% 4% [ 1 ]
4% 4% [ 1 ]
4% 4% [ 1 ]
4% 4% [ 1 ]
0% 0% [ 0 ]
4% 4% [ 1 ]
60% 60% [ 15 ]
12% 12% [ 3 ]
4% 4% [ 1 ]
0% 0% [ 0 ]
0% 0% [ 0 ]

Votos Totales : 25

Buscar
 
 

Resultados por:
 


Rechercher Búsqueda avanzada

Conectarse

Recuperar mi contraseña


Peace sells Tablatura

Ver el tema anterior Ver el tema siguiente Ir abajo

Peace sells Tablatura

Mensaje por Megadeth_CR-chris el Jue Abr 08, 2010 8:31 pm

Bass intro arranged for guitar:
e|----------------------------------------|
B|----------------------------------------|
G|----------------------------------------|
D|--------5--------7-8---------5----------|
A|-7--5-7------7-5------7--5-7------7-----|
E|-----------0--------------------0---5-6-|


Intro (Right channel guitar plays powerchord, left just plays
root note, so I put the B note in () )
e|-------------|
B|-------------|
G|-------------|
D|----(9)\-----|
A|-5-6-7-\--2--|
E|----------0--|

e|-----------------------------------------|
B|-----------------------------------------|
G|-----------------------------------------|
D|-7------7-7-7-7-7-7-7-7-7-7-7-7-7-7------|
A|-5------5-5-5-5-5-5-5-5-5-5-5-5-5-5-8-7--|
E|------------------------------------6-5--|
* * * * * * * * * * * * * *

Intro solo (Mustaine)
e|-[17]18r17--[17]18r17--[17]18r17--|
B|----------------------------------|
G|----------------------------------|
D|----------------------------------|
A|----------------------------------|
E|----------------------------------|

e|-12h16p12----11-11h15p11----10-10h14p10----9-9h13p9----8-|
B|----------15-------------14-------------13----------12---|
G|---------------------------------------------------------|
D|---------------------------------------------------------|
A|---------------------------------------------------------|
E|---------------------------------------------------------|

e|-8h12p8----7-7h11p7----6-6h10p6---5-5h9p5---5----|
B|--------11----------10----------9---------8---5~-|
G|-------------------------------------------------|
D|-------------------------------------------------|
A|-------------------------------------------------|
E|-------------------------------------------------|


Riff 1
e|-------------------------------------|
B|-------------------------------------|
G|-------------------------------------|
D|-------------------------------------|
A|----------------6-----------------5--|
E|-0-0-0-0-0-0-0--4--0-0-0-0-0-0-0--3--|
* * * * * * * * * * * * * *
"What do ya mean I don't believe in God?..."
e|-------------------------------------|
B|-------------------------------------|
G|-------------------------------------|
D|-------------------------------------|
A|----------------6---------------8--7-|
E|-0-0-0-0-0-0-0--4--0-0-0-0-0-0--6--5-|
* * * * * * * * * * * * *
"Talk to him everyday..."


Riff 2
e|-------------------------------------|
B|-------------------------------------|
G|----------7------------------7-------|
D|-9-9-7-9--5--7-9----9-9-7-9--5-------|
A|-7-7-5-7-----5-7----7-7-5-7-----4-5--|
E|--------------------------------2-3--|
"If there's a new way..."
e|----------------------------|
B|----------------------------|
G|----------------------------|
D|----------7--------------5--|
A|-5-5-4-5--5--4-5---5-4-3-3--|
E|-3-3-2-3-----2-3---3-2-1----|
* * *
"But it better work this time..."


Play Riff 1 Solo Rhythm

Solo (Poland)
e|----------------------------------------------------------|
B|----------------------------------12h13p12----------------|
G|-12b14----13p12-13p12----12h13h14----------14p13p12-------|
D|----------------------14----------------------------15-14-|
A|----------------------------------------------------------|
E|----------------------------------------------------------|

e|-----------------------------------------------------------|
B|-------12--------------------------------------------------|
G|-12h13----14p13p12-14p13p12p10-----------------------------|
D|-------------------------------14p12p10--------------------|
A|----------------------------------------14p12p10-----------|
E|-------------------------------------------------14p12p10~-|

e|-------12--------------------------|
B|-15-------15p12--------------------|
G|----------------14-12b13----(13)\--|
D|-----------------------------------|
A|-----------------------------------|
E|-----------------------------------|

End solo

Play Riff 1 "What do ya mean I hurt your feelings?"

Here are the solos over Riff 1 (All are Poland's)

#1
e|--------------------|
B|--------------------|
G|--------------------|
D|--------------------|
A|-7p5-7p5------------|
E|----------5--(5)d2*-|
"...didn't know ya had any feelings..."

#2
e|--------------------------------|
B|-17b19-{22}~p[17]19r17b19-{22}~-|
G|--------------------------------|
D|--------------------------------|
A|--------------------------------|
E|--------------------------------|
"...just not your kind..."

#3
e|------------------------|
B|-12----------12-14b15~\-|
G|----13----13------------|
D|-----a-14---------------|
A|------------------------|
E|------------------------|
"...of the United States of America?"

#4
e|-----------------------------------------------|
B|-15--------------------------------------------|
G|-14b16--14p12---14p13--------------------------|
D|-------------14-------14p12--------------------|
A|----------------------------14p12\10----12-10~-|
E|-------------------------------------12--------|
"...we, the people, right?"

End solos


Play Riff 2 "If there's a new way..."


Riff 3
e|-------------------------------------------|
B|-------------------------------------------|
G|-------------------------------------------|
D|-------------------------------------------|
A|-----10p9-10-----9p7-9-----7p5-7-----5p4-5-|
E|-0-0---------0-0-------0-0-------0-0-------|
* * * * * * * *
e|-------------------------------------------|
B|-------------------------------------------|
G|-------------------------------------------|
D|-------------------------------------------|
A|-----4p2-4-----2p0-2-----------------------|
E|-0-0-------0-0-------0-0--5p4-5-0-0--3p2-3-|
* * * * * * * *


Riff 3a
Guitar 1
e|-------------------------------------------|
B|-------------------------------------------|
G|-------------------------------------------|
D|-------------------------------------------|
A|-----10p9-10-----9p7-9-----7p5-7-----5p4-5-|
E|-0-0---------0-0-------0-0-------0-0-------|
* * * * * * * *
e|-----------------------------------------|
B|-----------------------------------------|
G|-----------------------------------------|
D|-----------------------------------------|
A|-----4p2-4-----2p0-2----------------/6-5-|
E|-0-0-------0-0-------0-0--5p4-5-0-0-/4-3-|
* * * * * * * *

Guitar 2
e|-----------------------------------------|
B|-----------------------------------------|
G|-----------------------------------------|
D|-----9p7-9-----7p5-7-----5p4-5-----4p2-4-|
A|-----------------------------------------|
E|-0-0-------0-0-------0-0-------0-0-------|
* * * * * * * *
e|-----------------------------------------|
B|-----------------------------------------|
G|-----------------------------------------|
D|-----2p0-2-------------------------------|
A|---------------5p4-5-----4p2-4------/6-5-|
E|-0-0-------0-0-------0-0--------0-0-/4-3-|
* * * * * * * *


Riff 4 (Solo Rhythm)
e|---------------------------------|
B|---------------------------------|
G|---------------------------------|
D|---------------------------------| --------|
A|-4-------------5-------4-----5-4-| |
E|-2-2-2-2-2-2-2-3-3-3-3-2-2-2-3-2-| |
* * * * * * * * * * * |
Guitar 1 |
e|------------------------------------------| |
B|------------------------------------------| |
G|------------------------------------------| |
D|------------------------------------------| |--- Play 3x
A|-----10p9-10-----9p7-9-----7p5-7-----/6-5-| |
E|-0-0---------0-0-------0-0-------0-0-/4-3-| |
* * * * * * * * |
Guitar 2 |
e|----------------------------------------| |
B|----------------------------------------| |
G|----------------------------------------| |
D|-----9p7-9-----7p5-7-----5p4-5----------| -------|
A|-----------------------------------/6-5-|
E|-0-0-------0-0-------0-0-------0-0-/4-3-|
* * * * * * * *

Final time
e|----------------------------------------------|
B|----------------------------------------------|
G|----------------------------------------------|
D|-----------------------------7-8-9------------|
A|-4-------------5-------4-----5-6-7-[let ring]-|
E|-2-2-2-2-2-2-2-3-3-3-3-2-2-2------------------|
* * * * * * * * * * *


Solos:

#1 (Poland)
e|----7-10----7------------------------7------------------------|
B|-11------11---10b12-10-8---10---8h10---8----------------------|
G|-------------------------9----9----------9~----7--------------|
D|-------------------------------------------------9-7-5--(5)b6-|
A|--------------------------------------------------------------|
E|--------------------------------------------------------------|


#2 (Mustaine)
e|--------------------------------------------|
B|--------------------------------------------|
G|--------------------------------------------|
D|--------------------------2-4p2-----2-------|
A|----------0h2p0---0-2h3h4-------4p3---4p3p0-|
E|-0h2--0h2-------2---------------------------|

e|------------------------------|
B|------------------------------|
G|-5p4p2-4-4p2------------------|
D|-------------4-2-4p2~----(2)--|
A|------------------------------|
E|------------------------------|

e|---------------------------------------|
B|---------------------------------------|
G|---------------------------------------|
D|-(2)--[note is held through next solo]-|
A|---------------------------------------|
E|---------------------------------------|


#3 (Poland)
e|-------19-------19-------------------------|
B|-19-20----19-20-----20--20^-[20]21-[20]21^-|
G|-------------------------------------------|
D|-------------------------------------------|
A|-------------------------------------------|
E|-------------------------------------------|

e|---------------------------|
B|-20b22-[20]23-[20]23-20b24-|
G|---------------------------|
D|---------------------------|
A|---------------------------|
E|---------------------------|

e|-------------------------------------|
B|-17h20----17~------------------------|
G|-------18--------19p16---------------|
D|-----------------------19-17-(17)b18-|
A|-------------------------------------|
E|-------------------------------------|


#4 (Mustaine)
e|-14h17p14--14-19p14-14-14h17p14--14-19p14--14h17p14--14-|
B|---------17--------------------17--------17--------17---|
G|--------------------------------------------------------|
D|--------------------------------------------------------|
A|--------------------------------------------------------|
E|--------------------------------------------------------|

e|-19p14--14h17p14--14-19p14--14h17p14--14-----------------------|
B|------17--------17--------17--------17---14h17p14-19p17p14-----|
G|-----------------------------------------------------------16~-|
D|---------------------------------------------------------------|
A|---------------------------------------------------------------|
E|---------------------------------------------------------------|

End solos


"Can you put a price on peace ? "


Riff 5
Guitar 1 x1
e|--------------------|
B|--------------------|
G|--------------------|
D|--------5-------7-8-|
A|-7--5-7-----7-5-----|
E|----------0---------|
*
x11
e|--------------------|
B|--------------------|
G|--------------------|
D|--------5-----------|
A|-7--5-7-----7-5-----|
E|----------0-----5-6-|
*


Guitar 2 (Comes in with the drums)
e|------------------------------|
B|------------------------------|
G|----------------------------4-|
D|----2-------5-------4-------4-|
A|----2-------5-------4----22---|
E|-00------33------22-----------|
** ** ** **
e|------------------------------|
B|------------------------------|
G|----------------------------4-|
D|----2-------5-------4-------4-|
A|----2-------5-------4----22---|
E|-00------33------22-----------|
** ** ** **



Riff 6
e|---------------------|
B|---------------------|
G|---------------------|
D|---------5-------7-8-|
A|-7~--5-7-----7-5-----|
E|-----------0---------|
*
"Peace, peace sells..."



Riff 7
Guitar 1
e|---------------------|
B|---------------------|
G|---------------------|
D|---------5-------7-8-|
A|-7~--5-7-----7-5-----|
E|-----------0---------|
*
"Peace sells, but who's buying ?"

Guitar 2
e|-----------------------|
B|-----------------------|
G|---------7-------9-10--|
D|-9~--7-9-----9-7-------|
A|-----------------------|
E|-----------0-----------|
*


Play Riff 6 Solo Rhythm


Solo (Poland)
e|------------------------------------|
B|-8b10----10b12~----12b15~----15b17~-|
G|------------------------------------|
D|------------------------------------|
A|------------------------------------|
E|------------------------------------|

e|-12---------12---------------------|
B|---15p12--12--15p12--12------------|
G|--------14---------14--14b16r14p12-|
D|-----------------------------------|
A|-----------------------------------|
E|-----------------------------------|

e|-15b17--15b17--15b17-15~~-|
B|--------------------------|
G|--------------------------|
D|--------------------------|
A|--------------------------|
E|--------------------------|

e|-------12h13p12----------12h13p12----------12h13p12-|
B|-12h15----------15p12h15----------15p12h15----------|
G|----------------------------------------------------|
D|----------------------------------------------------|
A|----------------------------------------------------|
E|----------------------------------------------------|

e|----------------------------12-|
B|-15p13p12----------12h13h15----|
G|----------14p12h14-------------|
D|-------------------------------|
A|-------------------------------|
E|-------------------------------|

e|-15b17----17b19~~--19b22~~--22b24~~--|
B|-------------------------------------|
G|-------------------------------------|
D|-------------------------------------|
A|-------------------------------------|
E|-------------------------------------|

E|-22p19----19-------------------------------------|
B|-------20----20b22r20b22-20b22-20b22-20b22-20~~\-|
G|-------------------------------------------------|
D|-------------------------------------------------|
A|-------------------------------------------------|
E|-------------------------------------------------|

End Solo


Play Riff 7 "Peace sells, but who's buying?"
Play Riff 6 "Peace sells, but who's buying?"


Riff 8
e|------------------------------------|
B|------------------------------------|
G|------------------------------------|
D|---------5-------7-8----------5-----|
A|-7~--5-7-----7-5------7~--5-7-----7-|
E|-----------0--------------------0---|
* *
e|-------------------------------------|
B|-------------------------------------|
G|-------------------------------------|
D|-------------------------------------|
A|-6-5-4-3---3-4-3---3-5-5-5-5-4-4-5-4-|
E|-4-3-2-1-0-1-2-1-0-1-3-3-3-3-2-2-3-2-|
* * * * * * * * * *
"No....no no no no..."

Final time
e|---------------------------------------|
B|---------------------------------------|
G|---------------------------------------|
D|---------------------------------7-8-9-|
A|-6-5-4-3---3-4-3---3-5-5-5-5-4-4-5-6-7-|
E|-4-3-2-1-0-1-2-1-0-1-3-3-3-3-2-2-------|
* * * * * * * * * *
"Peace sells..... ....ahhh"

NOTE: Extra guitar plays octaves over Riff 8 for some of
the chords, see below:
e|-----------------------------------------------|
B|-----------------------------------------------|
G|-----------------------------------------------|
D|-11-10-9-10-11-10-9-10-12-12-12-12-11-11-12-11-|
A|--9--8-7--8--9--8-7--8-10-10-10-10--9--9-10--9-|
E|-----------------------------------------------|
* * * * * * * * * * * * * * * *


Ending solo (Poland)
e|-----------------------------------------|
B|-----------------------------------------|
G|-----------------------------------------|
D|---------------------------11h12p11------|
A|------11h12p11-----11h12h14--------14p12-|
E|-12h14--------14p12----------------------|

e|-----------------------------------|
B|-----------------14----------------|
G|---------12h14h16---16b19--(19)r16-|
D|-11h12h14--------------------------|
A|-----------------------------------|
E|-----------------------------------|

e|----------------------------------------------------|
B|----------------------------------------------------|
G|-14p12-14-14b15-14-12----14p12h14-16-12b13r12h13h14-|
D|----------------------14----------------------------|
A|----------------------------------------------------|
E|----------------------------------------------------|

e|------------------------------------------|
B|-12h13p12--------12h13p12--------12h13p12-|
G|---------14p13h14--------14p13h14---------|
D|------------------------------------------|
A|------------------------------------------|
E|------------------------------------------|

e|---------------------------------------------------12-|
B|---------12h13h15-12----------12----------12h13h15----|
G|-14p13h14------------14p13h14----14p13h14-------------|
D|------------------------------------------------------|
A|------------------------------------------------------|
E|------------------------------------------------------|

e|-----------------------------------------------12-|
B|-15b17----15b17--15p12-15-15b19----(19)r15--16----|
G|--------------------------------------------------|
D|--------------------------------------------------|
A|--------------------------------------------------|
E|--------------------------------------------------|

e|----12----------12h14p12----------12h14p12-------12h14p12-|
B|-15----15p12h15----------15p12h15----------15p12----------|
G|----------------------------------------------------------|
D|----------------------------------------------------------|
A|----------------------------------------------------------|
E|----------------------------------------------------------|

e|----------15h16p15----------15h16p15-------17b19--17p15-17-|
B|-15p12-16----------17p15h17----------17p15-----------------|
G|-----------------------------------------------------------|
D|-----------------------------------------------------------|
A|-----------------------------------------------------------|
:puntos:

__________________________________
Megadeth_CR-chris
avatar
Megadeth_CR-chris
Profesional
Profesional

Sexo : Masculino Mensajes Mensajes : 305 Antiguedad en el foro : 30/03/2010
Edad : 21
Pais Pais : Costa Rica

Ver perfil de usuario

Volver arriba Ir abajo

Ver el tema anterior Ver el tema siguiente Volver arriba

- Temas similares

 
Permisos de este foro:
No puedes responder a temas en este foro.